quinta-feira, 7 de março de 2013

Cifra Behind Blue Eyes Limp Bizkit



   Behind Blue Eyes Limp Bizkit  Tom: G

               Intro: Em  G6  D5(9)  C9  A5(9)
Em                                G                            D
No one knows what it's like, to be the bad man,
           C9                                  A
To be the sad man, behind blue eyes
 Em                     G                          D
No one knows what it's like to be hated,
       C9                            A
To be fated, to telling only lies
                   C         D                G
But my dreams, they aren't as empty,
       
                        C          D        E  E4 E E4 E
As my conscience seems to be
              Bm          C9
I have hours, only lonely
                  D                                     A
My love is vengeance that's never free
:
 Em                               G                  D
No one knows what it's like to feel these feelings
        C9                    A
Like I do, and I blame you
 Em                              G                   D
No one bites back as hard on their anger
            C9                                     A
None of my pain and woe, can show through
 
Refrão:
                      C   D                G
But my dreams, they aren't as empty,
                         C          D        E  E4 E E4 E
As my conscience seems to be
        Bm                    C9
I have hours, only lonely
                          D                       A
My love is vengeance that's never free
 
                                                                 Em  G  D  C9  A
           Em                    G               D
No one knows what its like, to be mistreated,
         C9                             A
To be defeated, behind blue eyes
 
 Em                               G                 D
No one know how to say, that they're sorry
           C9                            A
And don't worry, I'm not telling lies
 
               C                          D                G
But my dreams, they aren't as empty,
                         C                           D        E  E4 E E4 E
As my conscience seems to be
                  Bm          C9
I have hours, only lonely
                         D                       A
My love is vengeance that's never free
Em                                   G                        D
No one knows what it's like, to be the bad man,
           C9                                A
To be the sad man, behind blue eyes

Intro (Acoustic):
|-----------------0--------------------------------------0----------|
|-----------0-------0-----0---0----------0-----------------0--------|
|-------2-----2-------2-----2----------2---2-----------2-----2---2--|
|-----2---------2-------2-------2----2-------2---2---2---------2----|
|---2------------------------------2-----------2---2----------------|
|-0-----------------------------------------------------------------|
 
Em                     G              D
|-------0---------------3---------------2-----------3-------2-------|
|---------0-----------0---0-----0-----3---3-----3-----3-------3-----|
|-----------0-------0-------0-------2-------2-----2-----2-------2---|
|-----2---------2-----------------0-----------0-----------0-------0-|
|---2---------------------------------------------------------------|
|-0-----------0---3-----------3-------------------------------------|
 
                 Cadd9      Asus2
|-------0---------------0---------------0---------------0---------|
|-----3---3-----------3---3---------------0---------------0-------|
|---0-------0---0---0-------0---0-----2-----2---2-----2-----2-----|
|-----------------------------------2---------------2-----------2-|
|-3-----------3---3-----------3---0-----------0---0-----------0---|
|-----------------------------------------------------------------|
 
       Em                     G          D
|-------0---------------3---------------2-----------2h3-------2-------|
|---------0-----------0---0-----0-----3---3-----3-------3-------3-----|
|-----------0-------0-------0-------2-------2-----2-------2-------2---|
|-----2---------2-----------------0-----------0-------------0-------0-|
|---2-----------------------------------------------------------------|
|-0-----------0---3-----------3---------------------------------------|
 
             Cadd9             A
|-------0---------------0---------0-----0---------------0---------|
|-----3---3-----------3---3-------2-------2---------------2-------|
|---0-------0---0---0-------0---0-2---2-----2---2-----2-----2-----|
|---------------------------------2-2---------------2---------2---|
|-3-----------3---3-----------3---0-----------0---0-------------0-|
|-----------------------------------------------------------------|
 
 

Nenhum comentário:

Google+ Badge

Total de visualizações de página

Twitter Delicious Facebook Digg Stumbleupon Favorites More

 
Design by Free WordPress Themes | Bloggerized by Lasantha - Premium Blogger Themes | Bluehost Review