quinta-feira, 21 de março de 2013

Cifra Awake Secondhand Serenade

video


Awake Secondhand Serenade John Vesely

Tom: C

Intro: C  Am  C  Am




               C                      Am
With every appearance by you, blinding my eyes,
                            C
I can hardly remember the last time I felt like I do.
                 Am
You're an angel disguised.
           F
And you're lying real still,
                                 G                    Am
But your heart beat is fast just like mine.
         F
And the movie's long over,
        G             
That's three that have passed, 
            Am
one more's fine.
 
           C    Am      G
Will you stay awake for me
   Am          G       F
I don't wanna miss anything
                      G
I don't wanna miss anything
         C        Am      G
I will share the air I breathe,
      Am           G           F
I'll give you my heart on a string,
I just don't wanna miss 
G
anything.  C  Am  C  Am
 
     C
I'm trying real hard not to shake
           Am
I'm biting my tongue,
                                C
But I'm feeling alive and with every breathe that I take,
            Am
I feel like I've won. You're my key to survival.
    F                  G
And if it's a hero you want,
                     Am
I can save you. Just stay here.
     F
Your whispers are priceless.
                                 G                      
Your presence it is dear so 
Am
please stay near.
 
           
         C    Am      G
Will you stay awake for me
   Am          G       F
I don't wanna miss anything
                      G
I don't wanna miss anything
         C        Am      G
I will share the air I breathe,
      Am           G           F
I'll give you my heart on a string,
                   G                 
I just don't wanna miss anything.
   C Am   C            G
  Say    my name. I just want to hear you.
C    F    C           G
  Say    my name. So I know it's true.
        Am                  F
You're changing me. You're changing me.
     C                G
You showed me how to live.
    F
So just say
    G
So just say
C    Am      G
That you stay awake for me
   Am          G       F
I don't wanna miss anything
                      G
I don't wanna miss anything
         C        Am      G
I will share the air I breathe,
      Am           G           F
I'll give you my heart on a string,
                            G
I just don't wanna miss anything.
 
 

Intro/Verse
E--------------------------------------------------------|
B--------1------------1-----------1-----------1----------|
G------0---0--------0---0-------2---2-------2---2--------|   X4
D----2-------2----2-------2---2-------2---2-------2------|
A--3------------3-----------0-----------0----------------|
E--------------------------------------------------------|
 
PreChorus :32 Seconds "and your..."
 
E-------------------------------------------------------|
B--------1---------------------------1-----------1------|
G------0---0-----------0-----------2---2-------2----2---|    X2
D----2-------2-------0---0-------2-------2---2--------2-|
A--3---------------2-------2---0-----------0------------|
E----------------3--------------------------------------|
 
Chorus :49 Seconds "Will you stay..."
 
E---------------------------------------------------------------------- 
B--------1-----------1-------------------------------------------------
G------0---0-------2---2----------0----------2---------------2---------
D----2-------2---2-------2------0---0------2--------0------3---3-------
A--3-----------0--------------2-------2--0--------2------3-------3-----
E---------------------------3-------------------3------1-----------1---
 
E---------------------------------------|
B---------------------------------------|
G--------2-----------0-----------0------|         X2
D------3---3-------0---0-------0---0----|
A----3-------3---2-------2---2-------2--|
E--1-----------3-----------3------------|
 
Bridge 1:21
 
E-------------------------------------------------------|
B--------1-----------1-----------1-----------1----------|
G------0-----------0---0-------2-----------2---2--------|   X2
D----2-----------2-------2---2-----------2-------2------|
A--3-----------3-----------0-----------0----------------|
E-------------------------------------------------------|
 

Nenhum comentário:

Google+ Badge

Total de visualizações de página

Twitter Delicious Facebook Digg Stumbleupon Favorites More

 
Design by Free WordPress Themes | Bloggerized by Lasantha - Premium Blogger Themes | Bluehost Review